HomeRegisterLog in

Share | 
 

 behind blue eyes

Go down 
AuthorMessage
A-Jay
Admin
avatar

Number of posts : 453
Age : 31
Location : ( city of head banging ) sweden
Registration date : 2008-10-05

PostSubject: behind blue eyes   Thu Nov 13, 2008 3:48 pm

hey guys

one of myfavorite guitar tabs is the song for the who but limpbizkit made it alife again, and i die when i listen to it even i it simple but its amazing,


so i brought you today the guitar tabs for it and the song hope that you gonna like it

download

intro
E-------0-----------0-----------0------------0---------------0--------------0-------
B------0-0---------3-3-------3----3-3-----3----3-3-------3-----3-3-------3----3-3---
G---------0-----------0-----2-2----2-----2-2----2---------0-----0---------0----0----
D----2-----2-----0-----0---0----------- 0--------------2---------------2------------
A---2-----------2-------------------------------------3---------------3-------------
E--0-----------3--------------------------------------------------------------------

--------0---------------0-------
-----0----0-0--------0----0-0---
------2----2----------2----2----
---2---------------2------------
--0---------------0-------------
--------------------------------




verse 1
E-------0-----------0-----------0------------0---------------0--------------0-------
B------0-0---------3-3-------3----3-3-----3----3-3-------3-----3-3-------3----3-3---
G---------0-----------0-----2-2----2-----2-2----2---------0-----0---------0----0----
D----2-----------0---------0----------- 0--------------2---------------2------------
A---2-----------2-------------------------------------3---------------3-------------
E--0-----------3--------------------------------------------------------------------

----0-0-0---0-------
----0-0-0---0-------
----2-2-2---2-------
----2-2-2---2-------
----0-0-0---0-------
----0-0-0---0-------


Last edited by A-Jay on Thu Nov 13, 2008 4:33 pm; edited 1 time in total
Back to top Go down
View user profile http://iraqimetalfreaks.yoo7.com
BFMV
METAL HEAD WARRIOR
METAL HEAD WARRIOR
avatar

Number of posts : 82
Age : 27
Location : US
Registration date : 2008-10-28

PostSubject: Re: behind blue eyes   Thu Nov 13, 2008 3:59 pm

Link doesn't work!
Back to top Go down
View user profile
dave



Number of posts : 132
Registration date : 2008-11-01

PostSubject: Re: behind blue eyes   Fri Nov 14, 2008 3:12 am

the link is working good !!
Back to top Go down
View user profile
A-Jay
Admin
avatar

Number of posts : 453
Age : 31
Location : ( city of head banging ) sweden
Registration date : 2008-10-05

PostSubject: Re: behind blue eyes   Fri Nov 14, 2008 12:49 pm

yeah hajer its working gurl
try again Wink
Back to top Go down
View user profile http://iraqimetalfreaks.yoo7.com
BFMV
METAL HEAD WARRIOR
METAL HEAD WARRIOR
avatar

Number of posts : 82
Age : 27
Location : US
Registration date : 2008-10-28

PostSubject: Re: behind blue eyes   Fri Nov 14, 2008 1:42 pm

SURE!


now its working ........................becuz of this : "Last edited by A-Jay on Thu Nov 13, 2008 6:33 pm; edited 1 time in total"

you............!!.
Back to top Go down
View user profile
A-Jay
Admin
avatar

Number of posts : 453
Age : 31
Location : ( city of head banging ) sweden
Registration date : 2008-10-05

PostSubject: Re: behind blue eyes   Fri Nov 14, 2008 2:13 pm

me???? Very Happy
amazing? i know, i know Razz
Back to top Go down
View user profile http://iraqimetalfreaks.yoo7.com
lil bird
SLIPKNOT FAN
SLIPKNOT FAN


Number of posts : 189
Age : 30
Registration date : 2008-10-27

PostSubject: Re: behind blue eyes   Sat Nov 15, 2008 2:27 am

Hey I Can Play It ...Its Too Easy ...Gimme Something For Death ..And I WIll Show You How Suck I Am lol
Back to top Go down
View user profile
A-Jay
Admin
avatar

Number of posts : 453
Age : 31
Location : ( city of head banging ) sweden
Registration date : 2008-10-05

PostSubject: Re: behind blue eyes   Sat Nov 15, 2008 3:51 am

looool then y dont u record it joj and let us see how good u r?? Wink
Back to top Go down
View user profile http://iraqimetalfreaks.yoo7.com
xEmOxGuRlx
Tokio Hotel Freak
Tokio Hotel Freak
avatar

Number of posts : 295
Location : somewhere?
Registration date : 2008-10-28

PostSubject: Re: behind blue eyes   Sun Nov 23, 2008 12:10 pm

cool
ill try to play it xD
Back to top Go down
View user profile
A-Jay
Admin
avatar

Number of posts : 453
Age : 31
Location : ( city of head banging ) sweden
Registration date : 2008-10-05

PostSubject: Re: behind blue eyes   Mon Nov 24, 2008 3:07 am

show me Wink
Back to top Go down
View user profile http://iraqimetalfreaks.yoo7.com
Sponsored content




PostSubject: Re: behind blue eyes   

Back to top Go down
 
behind blue eyes
Back to top 
Page 1 of 1
 Similar topics
-
» Random Eyes
» Billy on Peter Gabriel's Big Blue Ball CD
» Chick Corea celebrating 70 with a month at the Blue Note
» Five Peace Band at the Blue Note
» Brian Blade Blue Note

Permissions in this forum:You cannot reply to topics in this forum
IRAQI METAL FREAKS :: The Music We Love :: The Soundtrack Of Our Lives-
Jump to:  

Free forum | © phpBB | Free forum support | Contact | Report an abuse | Forumotion.com